您现在的位置是:首页 > 新闻资讯新闻资讯

求吉他六线谱里面各个符号所代表的含义

吉他重庆2022-06-04【新闻资讯】人已围观

简介此文章出自吉他迷网站



怎样读写网络常见的文本六线谱

什么是文本六线谱?
  文本六线谱是在计算机上用ASCII码的形式记录吉他曲谱的方法。它是在Internet这种特殊的传播

此文章出自吉他迷网站



怎样读写网络常见的文本六线谱

什么是文本六线谱?
  文本六线谱是在计算机上用ASCII码的形式记录吉他曲谱的方法。它是在Internet这种特殊的传播媒体上发展起来的。以图象格式存在的正规曲谱制作起来比较麻烦,而且对于某些不同操作系统的计算机还存在浏览上的限制。而文本六线谱是由文本字符和数字写成,任何计算机都可浏览下载,更方便互联网上吉他爱好者的相互交流。尽管没有正规的曲谱看上去完美,但文本六线谱的歌曲资源实在是太多了,现在几乎所有提供吉他曲谱的网站都在使用文本六线谱,可以说你想要找什么歌的吉他谱,都可以在网上找到。

文本六线谱能表现什么?

  文本六线谱能告诉你应该弹哪些音,也就是音发自吉他上的哪根弦,哪个品位。
  文本六线谱还能告诉你哪些地方需要使用打弦、拉弦、推弦、滑弦、泛音和颤音等技巧。
  文本六线谱还能告诉你这首歌使用的是什么调弦方法,如果没有专门指出,则默认的是吉他的标准调弦。如果需要使用品夹,文本六线谱也会标出。
  文本六线谱还能告诉你歌曲的节奏,音符的长短。
  但音符的准确时值,文本六线谱却无法表现,所以我们就来看看下面

文本六线谱不能表现什么?

  文本六线谱通常不能够准确的表现音符的时值,所以这需要你在弹奏曲子之前,边看六线谱边听这首歌曲的录音,以找准节奏。
  文本六线谱也不能够告诉你应该用哪根手指去弹哪个音。
  文本六线谱通常也不会告诉你拨弦和扫弦的细节,要由你自己来决定哪些地方该用上拨,哪些地方该用下拨。

怎样读识文本六线谱

文本六线谱的基本符号

  文本六线谱读识起来很简单。如果你自己扒了一首歌曲的吉他伴奏或SOLO,想用文本来记录成六线谱,那同样是很容易的。基本原理是这样的:
  先要打出六条线,这就表示吉他的六根线。在上方的是高音弦,下方是低音弦。下面就是基本的六线谱谱线,没有任何音符,只有六根空弦,左边是每根弦的音高名称。

E----------------------------------------------------------------
B----------------------------------------------------------------
G----------------------------------------------------------------
D----------------------------------------------------------------
A----------------------------------------------------------------
E----------------------------------------------------------------

  在线上写出的数字表示你的左手应该在此弦上按的哪个品位。如果是0的话,表示弹奏空弦,也就是开放弦。弹奏音的顺序是由左向右。下面这一条六线谱弹奏起来应该是从低音E弦的开放弦开始,每个音升高一个品位,顺序弹奏出E F F# G G# A 这几个音。

E----------------------------------------------------------------
B----------------------------------------------------------------
G----------------------------------------------------------------
D----------------------------------------------------------------
A----------------------------------------------------------------
E---0--1--2--3--4--5---------------------------------------------

  OK ,现在我们来看一下同时弹奏多个音。如果两个或更多的音要同时弹奏,在写的时候就要把音的数字并列在一列,理解起来应该是和五线谱或标准六线谱一样的。下面这个例子就是一个G的大横按和弦,这表示此和弦的所有音要同时弹奏。

E----3-----------------------------------------------------------
B----3-----------------------------------------------------------
G----4-----------------------------------------------------------
D----5-----------------------------------------------------------
A----5-----------------------------------------------------------
E----3-----------------------------------------------------------

  但有时你也会遇到和弦是象下面这样写出的:

E--------3-------------------------------------------------------
B-------3--------------------------------------------------------
G------4---------------------------------------------------------
D-----5----------------------------------------------------------
A----5-----------------------------------------------------------
E---3------------------------------------------------------------

  从六线谱上的数字来看,我们知道这与上面是同一个G和弦,左手的按法是一样的。但弹奏方法所不同的是,这个和弦要从低音E弦开始向下顺序扫拨弹奏,每根弦都要比前一根弦延迟一小会儿拨击,虽然声音不是同时发出,但当扫完最后一根弦时,六根弦仍会共鸣。下面这个例子还是同样的G和弦,但你会注意到数字之间的距离比上个和弦要大些,所以这次你就需要将每根弦逐一地分别弹奏,而不是从上至下扫拨下来了。

E------------------3---------------------------------------------
B---------------3-----3------------------------------------------
G------------4-----------4---------------------------------------
D---------5-----------------5------------------------------------
A------5-----------------------5---------------------------------
E---3-----------------------------3------------------------------

  你也许会问-我怎么才能知道弹奏这些音需要多快多慢呢?这些音的长短都是一致的吗?这也正是文本六线谱与标准曲谱的区别,一般来说文本六线谱不会给出音符时值的长短。需要你自己去多听歌曲的录音来找到节奏。但是也不要失望,文本六线谱中还是会给出一些节奏上的暗示。象上面那个例子,音符之间的距离是均等的,所以我们可以推测它们的音值也是相等的,但具体是八分音符还是四分音符,或是三连音,我们还是无法知道。而且写谱的人有不同的习惯,所以最好还是多听原曲的录音。当你对一首歌非常熟悉之后,它的节奏和旋律也就在你的心里了,谱子只是起一个提示作用,虽然不很清楚,但你学习弹奏很会显得很轻松的。

下面是一个旋律片段,音符之间的不同距离表示音的长短,大家可试着弹奏一下。

E-----------------------0--------4--2-0--------------------------
B---0--------------0---------------------------------0-----------
G------1------1----------------------------1----3----------------
D--------2-------------------------------------------------------
A----------------------------------------------------------------
E----------------------------------------------------------------

其他常用符号

  现在我们已经知道六线谱上的音符如何弹奏了:应该按哪个品,应该拨哪根弦。在文本六线谱中还经常用到一些较重要的符号,包括打弦(hammer-ons),拉弦(pull offs),推弦(bends),揉弦(vibrato)等等。在音符数字之间添加这些符号,来表示此音符的演奏手法。下面是一些很常用的符号:

· h - 打弦(hammer on)
· p - 拉弦(pull offs)
· b - 推弦(bends)
· r - 推弦后的放弦(release bend)
· / - 上行滑弦(slide up)
· \\ - 下行滑弦(slide down)
· v - 揉弦颤音(vibrato)(有时写作~)
· t - 右手打弦(tap)
· <> - 泛音(harmonics)
· x - 弹奏的时候制音

  有时上行滑音和下行滑音都可以用字母s表示。最后的一个x表示制音,是由按弦的手轻触琴弦,再拨弦时所发出的声音是闷的,有种打击乐的效果。要注意,在六线谱里使用的x和在和弦里使用的x是完全不一样的。

比如我们写一个D和弦,象下面这样:
EADGBE ----六根弦调弦的音高
xx0232 ----和弦音的品位

  这里面的x表示它所标示的弦不能弹奏和发音。而在文本六线谱里,如果在弦上没有任何标注,则表示此弦不发音,所以六线谱的D和弦应该是这样:

E-----2----------------------------------------------------------
B-----3----------------------------------------------------------
G-----2----------------------------------------------------------
D-----0----------------------------------------------------------
A----------------------------------------------------------------
E----------------------------------------------------------------

  可以看到在第5、6弦上没有x。在文本六线谱中,x只表示制音弹奏。

  另外还有一些符号,用来表示摇把拉弦,拨片擦弦等。这些符号没有固定的标准,有的歌曲六线谱的开头,会将一些特殊符号加以注释。

打弦和拉弦(Hammer on and Pull off)

打弦的符号标注是这样的:

E----------------------------------------------------------------
B----------------------------------------------------------------
G----------------------------------------------------------------
D----------------------------------------------------------------
A---------5h7-----------5h7--------------------------------------
E---0--0----------0--0-------------------------------------------

  按照上面的谱子弹奏,先弹两下E弦的空弦,再弹奏A弦第5品,然后按弦的手敲击第7品。(具体弹奏手法见教程中的打弦)
拉弦的表示方法与打弦很相似:

E----3p0---------------------------------------------------------
B---------3p0----------------------------------------------------
G--------------2p0-----------------------------------------------
D-------------------2--------------------------------------------
A----------------------------------------------------------------
E----------------------------------------------------------------

  这是一个下行的布鲁斯音阶,由按弦的手勾拉空弦。先按照数字弹奏音符,在谱中就是2和3品的音,然后按弦的手指通过勾拉的动作,发出空弦音。

  由于打弦和勾弦都是靠左手完成,所以你拨弦时,只需拨第一个音。你也可以弹奏象下面这样的一长串的连续勾打,也只需要弹奏第一个音:

E----------------------------------------------------------------
B----------------------------------------------------------------
G---2h4p2h4p2h4p2h4p2h4p2----------------------------------------
D----------------------------------------------------------------
A----------------------------------------------------------------
E----------------------------------------------------------------

推弦(Bends)

  文本六线谱中用字母b来表示推弦(如果你还不知道推弦如何弹奏,请看教程),象这样:

E----------------------------------------------------------------
B------7b9-------------------------------------------------------
G----------------------------------------------------------------
D----------------------------------------------------------------
A----------------------------------------------------------------
E----------------------------------------------------------------

  它的弹奏方法是拨B弦第7品,然后按弦的手指将弦音推高两个半度(一个全音),以达到和第9品相同的音高。(有时推弦的后半个音会被写在括号里,如---7b(9)---)。

Tags:线谱   吉他   符号

很赞哦! ()

文章评论

    共有条评论来说两句吧...

    用户名:

    验证码:

本站推荐

网站信息

  • 网站名称吉他重庆
  • 建站时间:2019-10-18
  • 网站程序:帝国CMS7.5
  • 文章统计6773篇文章
  • xml地图xml网站地图
  • 网站标签全部标签
  • 微信公众号:扫描二维码,关注我们